  0
SECTION
  2
HEADER
  9
$ACADVER
  1
AC1009
  9
$INSBASE
 10
645279.71299999999
 20
402415.57199999999
 30
0.0
  9
$EXTMIN
 10
645279.71299999999
 20
402371.641
 30
0.0
  9
$EXTMAX
 10
645468.26199999976
 20
402505.04700000002
 30
0.0
  9
$LIMMIN
 10
0.0
 20
0.0
  9
$LIMMAX
 10
420.0
 20
297.0
  9
$ORTHOMODE
 70
     0
  9
$REGENMODE
 70
     1
  9
$FILLMODE
 70
     1
  9
$QTEXTMODE
 70
     0
  9
$MIRRTEXT
 70
     0
  9
$DRAGMODE
 70
     2
  9
$LTSCALE
 40
1.0
  9
$OSMODE
 70
    41
  9
$ATTMODE
 70
     1
  9
$TEXTSIZE
 40
2.5
  9
$TRACEWID
 40
1.0
  9
$TEXTSTYLE
  7
STANDARD
  9
$CLAYER
  8
1
  9
$CELTYPE
  6
BYLAYER
  9
$CECOLOR
 62
     1
  9
$DIMSCALE
 40
1.0
  9
$DIMASZ
 40
2.5
  9
$DIMEXO
 40
0.625
  9
$DIMDLI
 40
3.75
  9
$DIMRND
 40
0.0
  9
$DIMDLE
 40
0.0
  9
$DIMEXE
 40
1.25
  9
$DIMTP
 40
0.0
  9
$DIMTM
 40
0.0
  9
$DIMTXT
 40
2.5
  9
$DIMCEN
 40
2.5
  9
$DIMTSZ
 40
0.0
  9
$DIMTOL
 70
     0
  9
$DIMLIM
 70
     0
  9
$DIMTIH
 70
     0
  9
$DIMTOH
 70
     0
  9
$DIMSE1
 70
     0
  9
$DIMSE2
 70
     0
  9
$DIMTAD
 70
     1
  9
$DIMZIN
 70
     8
  9
$DIMBLK
  1

  9
$DIMASO
 70
     1
  9
$DIMSHO
 70
     1
  9
$DIMPOST
  1

  9
$DIMAPOST
  1

  9
$DIMALT
 70
     0
  9
$DIMALTD
 70
     3
  9
$DIMALTF
 40
0.03937007874016
  9
$DIMLFAC
 40
1.0
  9
$DIMTOFL
 70
     1
  9
$DIMTVP
 40
0.0
  9
$DIMTIX
 70
     0
  9
$DIMSOXD
 70
     0
  9
$DIMSAH
 70
     0
  9
$DIMBLK1
  1

  9
$DIMBLK2
  1

  9
$DIMSTYLE
  2
ISO-25
  9
$DIMCLRD
 70
     0
  9
$DIMCLRE
 70
     0
  9
$DIMCLRT
 70
     0
  9
$DIMTFAC
 40
1.0
  9
$DIMGAP
 40
0.625
  9
$LUNITS
 70
     2
  9
$LUPREC
 70
     4
  9
$SKETCHINC
 40
1.0
  9
$FILLETRAD
 40
0.0
  9
$AUNITS
 70
     0
  9
$AUPREC
 70
     0
  9
$MENU
  1
.
  9
$ELEVATION
 40
0.0
  9
$PELEVATION
 40
0.0
  9
$THICKNESS
 40
0.0
  9
$LIMCHECK
 70
     0
  9
$BLIPMODE
 70
     0
  9
$CHAMFERA
 40
0.0
  9
$CHAMFERB
 40
0.0
  9
$SKPOLY
 70
     0
  9
$TDCREATE
 40
2459247.5519051161
  9
$TDUPDATE
 40
2459247.5577172111
  9
$TDINDWG
 40
0.0034590046
  9
$TDUSRTIMER
 40
0.0034576389
  9
$USRTIMER
 70
     1
  9
$ANGBASE
 50
0.0
  9
$ANGDIR
 70
     0
  9
$PDMODE
 70
     0
  9
$PDSIZE
 40
0.0
  9
$PLINEWID
 40
0.0
  9
$COORDS
 70
     1
  9
$SPLFRAME
 70
     0
  9
$SPLINETYPE
 70
     6
  9
$SPLINESEGS
 70
     8
  9
$ATTDIA
 70
     0
  9
$ATTREQ
 70
     0
  9
$HANDLING
 70
     1
  9
$HANDSEED
  5
215
  9
$SURFTAB1
 70
     6
  9
$SURFTAB2
 70
     6
  9
$SURFTYPE
 70
     6
  9
$SURFU
 70
     6
  9
$SURFV
 70
     6
  9
$UCSNAME
  2

  9
$UCSORG
 10
0.0
 20
0.0
 30
0.0
  9
$UCSXDIR
 10
1.0
 20
0.0
 30
0.0
  9
$UCSYDIR
 10
0.0
 20
1.0
 30
0.0
  9
$PUCSNAME
  2

  9
$PUCSORG
 10
0.0
 20
0.0
 30
0.0
  9
$PUCSXDIR
 10
1.0
 20
0.0
 30
0.0
  9
$PUCSYDIR
 10
0.0
 20
1.0
 30
0.0
  9
$USERI1
 70
     0
  9
$USERI2
 70
     0
  9
$USERI3
 70
     0
  9
$USERI4
 70
     0
  9
$USERI5
 70
     0
  9
$USERR1
 40
0.0
  9
$USERR2
 40
0.0
  9
$USERR3
 40
0.0
  9
$USERR4
 40
0.0
  9
$USERR5
 40
0.0
  9
$WORLDVIEW
 70
     1
  9
$SHADEDGE
 70
     3
  9
$SHADEDIF
 70
    70
  9
$TILEMODE
 70
     1
  9
$MAXACTVP
 70
    64
  9
$PLIMCHECK
 70
     0
  9
$PEXTMIN
 10
0.0
 20
0.0
 30
0.0
  9
$PEXTMAX
 10
0.0
 20
0.0
 30
0.0
  9
$PLIMMIN
 10
0.0
 20
0.0
  9
$PLIMMAX
 10
12.0
 20
9.0
  9
$UNITMODE
 70
     0
  9
$VISRETAIN
 70
     1
  9
$PLINEGEN
 70
     0
  9
$PSLTSCALE
 70
     1
  0
ENDSEC
  0
SECTION
  2
TABLES
  0
TABLE
  2
VPORT
 70
     1
  0
VPORT
  2
*ACTIVE
 70
     0
 10
0.0
 20
0.0
 11
1.0
 21
1.0
 12
645429.30185167119
 22
402429.14336008352
 13
0.0
 23
0.0
 14
10.0
 24
10.0
 15
10.0
 25
10.0
 16
0.0
 26
0.0
 36
1.0
 17
0.0
 27
0.0
 37
0.0
 40
224.6469006779736
 41
2.65625
 42
50.0
 43
0.0
 44
0.0
 50
0.0
 51
0.0
 71
     0
 72
  1000
 73
     1
 74
     3
 75
     0
 76
     1
 77
     0
 78
     0
  0
ENDTAB
  0
TABLE
  2
LTYPE
 70
     1
  0
LTYPE
  2
CONTINUOUS
 70
     0
  3
Solid line
 72
    65
 73
     0
 40
0.0
  0
ENDTAB
  0
TABLE
  2
LAYER
 70
     2
  0
LAYER
  2
0
 70
     0
 62
    -7
  6
CONTINUOUS
  0
LAYER
  2
1
 70
     0
 62
     7
  6
CONTINUOUS
  0
ENDTAB
  0
TABLE
  2
STYLE
 70
     2
  0
STYLE
  2
STANDARD
 70
     0
 40
0.0
 41
1.0
 50
0.0
 71
     0
 42
2.5
  3
txt
  4

  0
ENDTAB
  0
TABLE
  2
VIEW
 70
     0
  0
ENDTAB
  0
TABLE
  2
UCS
 70
     0
  0
ENDTAB
  0
TABLE
  2
APPID
 70
    11
  0
APPID
  2
ACAD
 70
     0
  0
APPID
  2
ACADANNOTATIVE
 70
     0
  0
APPID
  2
ACAD_PSEXT
 70
     0
  0
APPID
  2
ACAD_DSTYLE_DIMJAG
 70
     0
  0
APPID
  2
ACAD_DSTYLE_DIMTALN
 70
     0
  0
APPID
  2
ACAD_NAV_VCDISPLAY
 70
     0
  0
APPID
  2
ACAECLAYERSTANDARD
 70
     0
  0
APPID
  2
ACCMTRANSPARENCY
 70
     0
  0
APPID
  2
GRADIENTCOLOR1ACI
 70
     0
  0
APPID
  2
GRADIENTCOLOR2ACI
 70
     0
  0
APPID
  2
ACAD_MLEADERVER
 70
     0
  0
ENDTAB
  0
TABLE
  2
DIMSTYLE
 70
     3
  0
DIMSTYLE
  2
ISO-25
 70
     0
  3

  4

  5

  6

  7

 40
1.0
 41
2.5
 42
0.625
 43
3.75
 44
1.25
 45
0.0
 46
0.0
 47
0.0
 48
0.0
140
2.5
141
2.5
142
0.0
143
0.03937007874016
144
1.0
145
0.0
146
1.0
147
0.625
 71
     0
 72
     0
 73
     0
 74
     0
 75
     0
 76
     0
 77
     1
 78
     8
170
     0
171
     3
172
     1
173
     0
174
     0
175
     0
176
     0
177
     0
178
     0
  0
ENDTAB
  0
ENDSEC
  0
SECTION
  2
BLOCKS
  0
BLOCK
  8
0
  2
$MODEL_SPACE
 70
     0
 10
0.0
 20
0.0
 30
0.0
  3
$MODEL_SPACE
  1

  0
ENDBLK
  5
1AC
  8
0
  0
BLOCK
 67
     1
  8
0
  2
$PAPER_SPACE
 70
     0
 10
0.0
 20
0.0
 30
0.0
  3
$PAPER_SPACE
  1

  0
ENDBLK
  5
1A8
 67
     1
  8
0
  0
BLOCK
  8
0
 62
     1
  2
*U2
 70
     1
 10
0.0
 20
0.0
 30
0.0
  3
*U2
  1

  0
SOLID
  5
B3
  8
1
  6
CONTINUOUS
 62
     1
 10
-645429.08200000005
 20
402505.04700000002
 30
0.0
 11
-645435.05599999998
 21
402498.45899999992
 31
0.0
 12
-645418.08403440064
 22
402498.45899999992
 32
0.0
 13
-645418.08403440064
 23
402498.45899999992
 33
0.0
210
0.0
220
0.0
230
-1.0
  0
SOLID
  5
B4
  8
1
  6
CONTINUOUS
 62
     1
 10
-645418.08403440064
 20
402498.45899999992
 30
0.0
 11
-645435.05799999996
 21
402498.45600000001
 31
0.0
 12
-645418.07902621967
 22
402498.45600000001
 32
0.0
 13
-645418.07902621967
 23
402498.45600000001
 33
0.0
210
0.0
220
0.0
230
-1.0
  0
SOLID
  5
B5
  8
1
  6
CONTINUOUS
 62
     1
 10
-645418.08403440064
 20
402498.45899999992
 30
0.0
 11
-645435.05599999998
 21
402498.45899999992
 31
0.0
 12
-645435.05799999996
 22
402498.45600000001
 32
0.0
 13
-645435.05799999996
 23
402498.45600000001
 33
0.0
210
0.0
220
0.0
230
-1.0
  0
SOLID
  5
B6
  8
1
  6
CONTINUOUS
 62
     1
 10
-645418.07902621967
 20
402498.45600000001
 30
0.0
 11
-645445.81599999999
 21
402486.81199999992
 31
0.0
 12
-645398.64060614724
 22
402486.81199999992
 32
0.0
 13
-645398.64060614724
 23
402486.81199999992
 33
0.0
210
0.0
220
0.0
230
-1.0
  0
SOLID
  5
B7
  8
1
  6
CONTINUOUS
 62
     1
 10
-645418.07902621967
 20
402498.45600000001
 30
0.0
 11
-645435.05799999996
 21
402498.45600000001
 31
0.0
 12
-645445.81599999999
 22
402486.81199999992
 32
0.0
 13
-645445.81599999999
 23
402486.81199999992
 33
0.0
210
0.0
220
0.0
230
-1.0
  0
SOLID
  5
B8
  8
1
  6
CONTINUOUS
 62
     1
 10
-645398.64060614724
 20
402486.81199999992
 30
0.0
 11
-645458.32799999998
 21
402472.79100000008
 31
0.0
 12
-645375.23403728427
 22
402472.79100000008
 32
0.0
 13
-645375.23403728427
 23
402472.79100000008
 33
0.0
210
0.0
220
0.0
230
-1.0
  0
SOLID
  5
B9
  8
1
  6
CONTINUOUS
 62
     1
 10
-645398.64060614724
 20
402486.81199999992
 30
0.0
 11
-645445.81599999999
 21
402486.81199999992
 31
0.0
 12
-645458.32799999998
 22
402472.79100000008
 32
0.0
 13
-645458.32799999998
 23
402472.79100000008
 33
0.0
210
0.0
220
0.0
230
-1.0
  0
SOLID
  5
BA
  8
1
  6
CONTINUOUS
 62
     1
 10
-645375.23403728427
 20
402472.79100000008
 30
0.0
 11
-645458.33100000012
 21
402472.78799999988
 31
0.0
 12
-645375.22902910318
 22
402472.78799999988
 32
0.0
 13
-645375.22902910318
 23
402472.78799999988
 33
0.0
210
0.0
220
0.0
230
-1.0
  0
SOLID
  5
BB
  8
1
  6
CONTINUOUS
 62
     1
 10
-645375.23403728427
 20
402472.79100000008
 30
0.0
 11
-645458.32799999998
 21
402472.79100000008
 31
0.0
 12
-645458.33100000012
 22
402472.78799999988
 32
0.0
 13
-645458.33100000012
 23
402472.78799999988
 33
0.0
210
0.0
220
0.0
230
-1.0
  0
SOLID
  5
BC
  8
1
  6
CONTINUOUS
 62
     1
 10
-645375.22902910318
 20
402472.78799999988
 30
0.0
 11
-645468.26199999976
 21
402461.83399999992
 31
0.0
 12
-645356.94249067351
 22
402461.83399999992
 32
0.0
 13
-645356.94249067351
 23
402461.83399999992
 33
0.0
210
0.0
220
0.0
230
-1.0
  0
SOLID
  5
BD
  8
1
  6
CONTINUOUS
 62
     1
 10
-645375.22902910318
 20
402472.78799999988
 30
0.0
 11
-645458.33100000012
 21
402472.78799999988
 31
0.0
 12
-645468.26199999976
 22
402461.83399999992
 32
0.0
 13
-645468.26199999976
 23
402461.83399999992
 33
0.0
210
0.0
220
0.0
230
-1.0
  0
SOLID
  5
BE
  8
1
  6
CONTINUOUS
 62
     1
 10
-645356.94249067351
 20
402461.83399999992
 30
0.0
 11
-645447.32775100064
 21
402449.29399999999
 31
0.0
 12
-645336.00829385861
 22
402449.29399999999
 32
0.0
 13
-645336.00829385861
 23
402449.29399999999
 33
0.0
210
0.0
220
0.0
230
-1.0
  0
SOLID
  5
BF
  8
1
  6
CONTINUOUS
 62
     1
 10
-645356.94249067351
 20
402461.83399999992
 30
0.0
 11
-645468.26199999976
 21
402461.83399999992
 31
0.0
 12
-645447.32775100064
 22
402449.29399999999
 32
0.0
 13
-645447.32775100064
 23
402449.29399999999
 33
0.0
210
0.0
220
0.0
230
-1.0
  0
SOLID
  5
C0
  8
1
  6
CONTINUOUS
 62
     1
 10
-645353.24800000025
 20
402449.29399999999
 30
0.0
 11
-645447.32107340929
 21
402449.28999999998
 31
0.0
 12
-645353.25100000005
 22
402449.28999999998
 32
0.0
 13
-645353.25100000005
 23
402449.28999999998
 33
0.0
210
0.0
220
0.0
230
-1.0
  0
SOLID
  5
C1
  8
1
  6
CONTINUOUS
 62
     1
 10
-645353.24800000025
 20
402449.29399999999
 30
0.0
 11
-645447.32775100064
 21
402449.29399999999
 31
0.0
 12
-645447.32107340929
 22
402449.28999999998
 32
0.0
 13
-645447.32107340929
 23
402449.28999999998
 33
0.0
210
0.0
220
0.0
230
-1.0
  0
SOLID
  5
C2
  8
1
  6
CONTINUOUS
 62
     1
 10
-645336.00829385861
 20
402449.29399999999
 30
0.0
 11
-645353.24301597441
 21
402449.28999999998
 31
0.0
 12
-645336.0016162839
 22
402449.28999999998
 32
0.0
 13
-645336.0016162839
 23
402449.28999999998
 33
0.0
210
0.0
220
0.0
230
-1.0
  0
SOLID
  5
C3
  8
1
  6
CONTINUOUS
 62
     1
 10
-645336.00829385861
 20
402449.29399999999
 30
0.0
 11
-645353.24800000025
 21
402449.29399999999
 31
0.0
 12
-645353.24301597441
 22
402449.28999999998
 32
0.0
 13
-645353.24301597441
 23
402449.28999999998
 33
0.0
210
0.0
220
0.0
230
-1.0
  0
SOLID
  5
C4
  8
1
  6
CONTINUOUS
 62
     1
 10
-645336.0016162839
 20
402449.28999999998
 30
0.0
 11
-645352.46799999999
 21
402448.66800000001
 31
0.0
 12
-645334.96325341158
 22
402448.66800000001
 32
0.0
 13
-645334.96325341158
 23
402448.66800000001
 33
0.0
210
0.0
220
0.0
230
-1.0
  0
SOLID
  5
C5
  8
1
  6
CONTINUOUS
 62
     1
 10
-645336.0016162839
 20
402449.28999999998
 30
0.0
 11
-645353.24301597441
 21
402449.28999999998
 31
0.0
 12
-645352.46799999999
 22
402448.66800000001
 32
0.0
 13
-645352.46799999999
 23
402448.66800000001
 33
0.0
210
0.0
220
0.0
230
-1.0
  0
SOLID
  5
C6
  8
1
  6
CONTINUOUS
 62
     1
 10
-645353.25100000005
 20
402449.28999999998
 30
0.0
 11
-645446.02562068019
 21
402448.51400000002
 31
0.0
 12
-645353.87399999995
 22
402448.51400000002
 32
0.0
 13
-645353.87399999995
 23
402448.51400000002
 33
0.0
210
0.0
220
0.0
230
-1.0
  0
SOLID
  5
C7
  8
1
  6
CONTINUOUS
 62
     1
 10
-645353.25100000005
 20
402449.28999999998
 30
0.0
 11
-645447.32107340929
 21
402449.28999999998
 31
0.0
 12
-645446.02562068019
 22
402448.51400000002
 32
0.0
 13
-645446.02562068019
 23
402448.51400000002
 33
0.0
210
0.0
220
0.0
230
-1.0
  0
SOLID
  5
C8
  8
1
  6
CONTINUOUS
 62
     1
 10
-645334.96325341158
 20
402448.66800000001
 30
0.0
 11
-645352.59179230768
 21
402448.51400000002
 31
0.0
 12
-645334.70616678405
 22
402448.51400000002
 32
0.0
 13
-645334.70616678405
 23
402448.51400000002
 33
0.0
210
0.0
220
0.0
230
-1.0
  0
SOLID
  5
C9
  8
1
  6
CONTINUOUS
 62
     1
 10
-645334.96325341158
 20
402448.66800000001
 30
0.0
 11
-645352.46799999999
 21
402448.66800000001
 31
0.0
 12
-645352.59179230768
 22
402448.51400000002
 32
0.0
 13
-645352.59179230768
 23
402448.51400000002
 33
0.0
210
0.0
220
0.0
230
-1.0
  0
SOLID
  5
CA
  8
1
  6
CONTINUOUS
 62
     1
 10
-645353.87399999995
 20
402448.51400000002
 30
0.0
 11
-645444.98057762824
 21
402447.88799999998
 31
0.0
 12
-645353.09499999997
 22
402447.88799999998
 32
0.0
 13
-645353.09499999997
 23
402447.88799999998
 33
0.0
210
0.0
220
0.0
230
-1.0
  0
SOLID
  5
CB
  8
1
  6
CONTINUOUS
 62
     1
 10
-645353.87399999995
 20
402448.51400000002
 30
0.0
 11
-645446.02562068019
 21
402448.51400000002
 31
0.0
 12
-645444.98057762824
 22
402447.88799999998
 32
0.0
 13
-645444.98057762824
 23
402447.88799999998
 33
0.0
210
0.0
220
0.0
230
-1.0
  0
SOLID
  5
CC
  8
1
  6
CONTINUOUS
 62
     1
 10
-645334.70616678405
 20
402448.51400000002
 30
0.0
 11
-645353.09499999997
 21
402447.88799999998
 31
0.0
 12
-645333.66112633678
 22
402447.88799999998
 32
0.0
 13
-645333.66112633678
 23
402447.88799999998
 33
0.0
210
0.0
220
0.0
230
-1.0
  0
SOLID
  5
CD
  8
1
  6
CONTINUOUS
 62
     1
 10
-645334.70616678405
 20
402448.51400000002
 30
0.0
 11
-645352.59179230768
 21
402448.51400000002
 31
0.0
 12
-645353.09499999997
 22
402447.88799999998
 32
0.0
 13
-645353.09499999997
 23
402447.88799999998
 33
0.0
210
0.0
220
0.0
230
-1.0
  0
SOLID
  5
CE
  8
1
  6
CONTINUOUS
 62
     1
 10
-645333.66112633678
 20
402447.88799999998
 30
0.0
 11
-645404.22890678886
 21
402423.47700000001
 31
0.0
 12
-645292.90955708292
 22
402423.47700000001
 32
0.0
 13
-645292.90955708292
 23
402423.47700000001
 33
0.0
210
0.0
220
0.0
230
-1.0
  0
SOLID
  5
CF
  8
1
  6
CONTINUOUS
 62
     1
 10
-645333.66112633678
 20
402447.88799999998
 30
0.0
 11
-645444.98057762824
 21
402447.88799999998
 31
0.0
 12
-645404.22890678886
 22
402423.47700000001
 32
0.0
 13
-645404.22890678886
 23
402423.47700000001
 33
0.0
210
0.0
220
0.0
230
-1.0
  0
SOLID
  5
D0
  8
1
  6
CONTINUOUS
 62
     1
 10
-645376.27400000009
 20
402423.47700000001
 30
0.0
 11
-645404.22389859532
 21
402423.47399999987
 31
0.0
 12
-645376.277
 22
402423.47399999987
 32
0.0
 13
-645376.277
 23
402423.47399999987
 33
0.0
210
0.0
220
0.0
230
-1.0
  0
SOLID
  5
D1
  8
1
  6
CONTINUOUS
 62
     1
 10
-645376.27400000009
 20
402423.47700000001
 30
0.0
 11
-645404.22890678886
 21
402423.47700000001
 31
0.0
 12
-645404.22389859532
 22
402423.47399999987
 32
0.0
 13
-645404.22389859532
 23
402423.47399999987
 33
0.0
210
0.0
220
0.0
230
-1.0
  0
SOLID
  5
D2
  8
1
  6
CONTINUOUS
 62
     1
 10
-645292.90955708292
 20
402423.47700000001
 30
0.0
 11
-645376.27026677295
 21
402423.47399999987
 31
0.0
 12
-645292.90454890206
 22
402423.47399999987
 32
0.0
 13
-645292.90454890206
 23
402423.47399999987
 33
0.0
210
0.0
220
0.0
230
-1.0
  0
SOLID
  5
D3
  8
1
  6
CONTINUOUS
 62
     1
 10
-645292.90955708292
 20
402423.47700000001
 30
0.0
 11
-645376.27400000009
 21
402423.47700000001
 31
0.0
 12
-645376.27026677295
 22
402423.47399999987
 32
0.0
 13
-645376.27026677295
 23
402423.47399999987
 33
0.0
210
0.0
220
0.0
230
-1.0
  0
SOLID
  5
D4
  8
1
  6
CONTINUOUS
 62
     1
 10
-645292.90454890206
 20
402423.47399999987
 30
0.0
 11
-645375.495
 21
402422.85100000002
 31
0.0
 12
-645291.86451663601
 22
402422.85100000002
 32
0.0
 13
-645291.86451663601
 23
402422.85100000002
 33
0.0
210
0.0
220
0.0
230
-1.0
  0
SOLID
  5
D5
  8
1
  6
CONTINUOUS
 62
     1
 10
-645292.90454890206
 20
402423.47399999987
 30
0.0
 11
-645376.27026677295
 21
402423.47399999987
 31
0.0
 12
-645375.495
 22
402422.85100000002
 32
0.0
 13
-645375.495
 23
402422.85100000002
 33
0.0
210
0.0
220
0.0
230
-1.0
  0
SOLID
  5
D6
  8
1
  6
CONTINUOUS
 62
     1
 10
-645376.277
 20
402423.47399999987
 30
0.0
 11
-645402.92844586633
 21
402422.69799999997
 31
0.0
 12
-645376.90000000026
 22
402422.69799999997
 32
0.0
 13
-645376.90000000026
 23
402422.69799999997
 33
0.0
210
0.0
220
0.0
230
-1.0
  0
SOLID
  5
D7
  8
1
  6
CONTINUOUS
 62
     1
 10
-645376.277
 20
402423.47399999987
 30
0.0
 11
-645404.22389859532
 21
402423.47399999987
 31
0.0
 12
-645402.92844586633
 22
402422.69799999997
 32
0.0
 13
-645402.92844586633
 23
402422.69799999997
 33
0.0
210
0.0
220
0.0
230
-1.0
  0
SOLID
  5
D8
  8
1
  6
CONTINUOUS
 62
     1
 10
-645291.86451663601
 20
402422.85100000002
 30
0.0
 11
-645375.61759615375
 21
402422.69799999997
 31
0.0
 12
-645291.60909940233
 22
402422.69799999997
 32
0.0
 13
-645291.60909940233
 23
402422.69799999997
 33
0.0
210
0.0
220
0.0
230
-1.0
  0
SOLID
  5
D9
  8
1
  6
CONTINUOUS
 62
     1
 10
-645291.86451663601
 20
402422.85100000002
 30
0.0
 11
-645375.495
 21
402422.85100000002
 31
0.0
 12
-645375.61759615375
 22
402422.69799999997
 32
0.0
 13
-645375.61759615375
 23
402422.69799999997
 33
0.0
210
0.0
220
0.0
230
-1.0
  0
SOLID
  5
DA
  8
1
  6
CONTINUOUS
 62
     1
 10
-645376.90000000026
 20
402422.69799999997
 30
0.0
 11
-645401.88173341623
 21
402422.071
 31
0.0
 12
-645376.11999999988
 22
402422.071
 32
0.0
 13
-645376.11999999988
 23
402422.071
 33
0.0
210
0.0
220
0.0
230
-1.0
  0
SOLID
  5
DB
  8
1
  6
CONTINUOUS
 62
     1
 10
-645376.90000000026
 20
402422.69799999997
 30
0.0
 11
-645402.92844586633
 21
402422.69799999997
 31
0.0
 12
-645401.88173341623
 22
402422.071
 32
0.0
 13
-645401.88173341623
 23
402422.071
 33
0.0
210
0.0
220
0.0
230
-1.0
  0
SOLID
  5
DC
  8
1
  6
CONTINUOUS
 62
     1
 10
-645291.60909940233
 20
402422.69799999997
 30
0.0
 11
-645376.11999999988
 21
402422.071
 31
0.0
 12
-645290.56238956132
 22
402422.071
 32
0.0
 13
-645290.56238956132
 23
402422.071
 33
0.0
210
0.0
220
0.0
230
-1.0
  0
SOLID
  5
DD
  8
1
  6
CONTINUOUS
 62
     1
 10
-645291.60909940233
 20
402422.69799999997
 30
0.0
 11
-645375.61759615375
 21
402422.69799999997
 31
0.0
 12
-645376.11999999988
 22
402422.071
 32
0.0
 13
-645376.11999999988
 23
402422.071
 33
0.0
210
0.0
220
0.0
230
-1.0
  0
SOLID
  5
DE
  8
1
  6
CONTINUOUS
 62
     1
 10
-645279.71299999999
 20
402415.57199999999
 30
0.0
 11
-645391.03231680952
 21
402415.57199999999
 31
0.0
 12
-645317.69400000002
 22
402371.641
 32
0.0
 13
-645317.69400000002
 23
402371.641
 33
0.0
210
0.0
220
0.0
230
-1.0
  0
SOLID
  5
DF
  8
1
  6
CONTINUOUS
 62
     1
 10
-645290.56238956132
 20
402422.071
 30
0.0
 11
-645391.03231680952
 21
402415.57199999999
 31
0.0
 12
-645279.71299999999
 22
402415.57199999999
 32
0.0
 13
-645279.71299999999
 23
402415.57199999999
 33
0.0
210
0.0
220
0.0
230
-1.0
  0
SOLID
  5
E0
  8
1
  6
CONTINUOUS
 62
     1
 10
-645290.56238956132
 20
402422.071
 30
0.0
 11
-645401.88173341623
 21
402422.071
 31
0.0
 12
-645391.03231680952
 22
402415.57199999999
 32
0.0
 13
-645391.03231680952
 23
402415.57199999999
 33
0.0
210
0.0
220
0.0
230
-1.0
  0
LINE
  5
E1
  8
1
  6
CONTINUOUS
 62
     1
 10
645429.08200000005
 20
402505.04700000002
 30
0.0
 11
645435.05599999998
 21
402498.45899999992
 31
0.0
  0
LINE
  5
E2
  8
1
  6
CONTINUOUS
 62
     1
 10
645418.08403440064
 20
402498.45899999992
 30
0.0
 11
645429.08200000005
 21
402505.04700000002
 31
0.0
  0
LINE
  5
E3
  8
1
  6
CONTINUOUS
 62
     1
 10
645418.07902621967
 20
402498.45600000001
 30
0.0
 11
645418.08403440064
 21
402498.45899999992
 31
0.0
  0
LINE
  5
E4
  8
1
  6
CONTINUOUS
 62
     1
 10
645435.05599999998
 20
402498.45899999992
 30
0.0
 11
645435.05799999996
 21
402498.45600000001
 31
0.0
  0
LINE
  5
E5
  8
1
  6
CONTINUOUS
 62
     1
 10
645398.64060614724
 20
402486.81199999992
 30
0.0
 11
645418.07902621967
 21
402498.45600000001
 31
0.0
  0
LINE
  5
E6
  8
1
  6
CONTINUOUS
 62
     1
 10
645435.05799999996
 20
402498.45600000001
 30
0.0
 11
645445.81599999999
 21
402486.81199999992
 31
0.0
  0
LINE
  5
E7
  8
1
  6
CONTINUOUS
 62
     1
 10
645375.23403728427
 20
402472.79100000008
 30
0.0
 11
645398.64060614724
 21
402486.81199999992
 31
0.0
  0
LINE
  5
E8
  8
1
  6
CONTINUOUS
 62
     1
 10
645445.81599999999
 20
402486.81199999992
 30
0.0
 11
645458.32799999998
 21
402472.79100000008
 31
0.0
  0
LINE
  5
E9
  8
1
  6
CONTINUOUS
 62
     1
 10
645375.22902910318
 20
402472.78799999988
 30
0.0
 11
645375.23403728427
 21
402472.79100000008
 31
0.0
  0
LINE
  5
EA
  8
1
  6
CONTINUOUS
 62
     1
 10
645458.32799999998
 20
402472.79100000008
 30
0.0
 11
645458.33100000012
 21
402472.78799999988
 31
0.0
  0
LINE
  5
EB
  8
1
  6
CONTINUOUS
 62
     1
 10
645356.94249067351
 20
402461.83399999992
 30
0.0
 11
645375.22902910318
 21
402472.78799999988
 31
0.0
  0
LINE
  5
EC
  8
1
  6
CONTINUOUS
 62
     1
 10
645458.33100000012
 20
402472.78799999988
 30
0.0
 11
645468.26199999976
 21
402461.83399999992
 31
0.0
  0
LINE
  5
ED
  8
1
  6
CONTINUOUS
 62
     1
 10
645336.00829385861
 20
402449.29399999999
 30
0.0
 11
645356.94249067351
 21
402461.83399999992
 31
0.0
  0
LINE
  5
EE
  8
1
  6
CONTINUOUS
 62
     1
 10
645468.26199999976
 20
402461.83399999992
 30
0.0
 11
645447.32775100064
 21
402449.29399999999
 31
0.0
  0
LINE
  5
EF
  8
1
  6
CONTINUOUS
 62
     1
 10
645447.32775100064
 20
402449.29399999999
 30
0.0
 11
645447.32107340929
 21
402449.28999999998
 31
0.0
  0
LINE
  5
F0
  8
1
  6
CONTINUOUS
 62
     1
 10
645336.0016162839
 20
402449.28999999998
 30
0.0
 11
645336.00829385861
 21
402449.29399999999
 31
0.0
  0
LINE
  5
F1
  8
1
  6
CONTINUOUS
 62
     1
 10
645334.96325341158
 20
402448.66800000001
 30
0.0
 11
645336.0016162839
 21
402449.28999999998
 31
0.0
  0
LINE
  5
F2
  8
1
  6
CONTINUOUS
 62
     1
 10
645353.24301597441
 20
402449.28999999998
 30
0.0
 11
645352.46799999999
 21
402448.66800000001
 31
0.0
  0
LINE
  5
F3
  8
1
  6
CONTINUOUS
 62
     1
 10
645353.87399999995
 20
402448.51400000002
 30
0.0
 11
645353.25100000005
 21
402449.28999999998
 31
0.0
  0
LINE
  5
F4
  8
1
  6
CONTINUOUS
 62
     1
 10
645447.32107340929
 20
402449.28999999998
 30
0.0
 11
645446.02562068019
 21
402448.51400000002
 31
0.0
  0
LINE
  5
F5
  8
1
  6
CONTINUOUS
 62
     1
 10
645334.70616678405
 20
402448.51400000002
 30
0.0
 11
645334.96325341158
 21
402448.66800000001
 31
0.0
  0
LINE
  5
F6
  8
1
  6
CONTINUOUS
 62
     1
 10
645352.46799999999
 20
402448.66800000001
 30
0.0
 11
645352.59179230768
 21
402448.51400000002
 31
0.0
  0
LINE
  5
F7
  8
1
  6
CONTINUOUS
 62
     1
 10
645446.02562068019
 20
402448.51400000002
 30
0.0
 11
645444.98057762824
 21
402447.88799999998
 31
0.0
  0
LINE
  5
F8
  8
1
  6
CONTINUOUS
 62
     1
 10
645333.66112633678
 20
402447.88799999998
 30
0.0
 11
645334.70616678405
 21
402448.51400000002
 31
0.0
  0
LINE
  5
F9
  8
1
  6
CONTINUOUS
 62
     1
 10
645292.90955708292
 20
402423.47700000001
 30
0.0
 11
645333.66112633678
 21
402447.88799999998
 31
0.0
  0
LINE
  5
FA
  8
1
  6
CONTINUOUS
 62
     1
 10
645444.98057762824
 20
402447.88799999998
 30
0.0
 11
645404.22890678886
 21
402423.47700000001
 31
0.0
  0
LINE
  5
FB
  8
1
  6
CONTINUOUS
 62
     1
 10
645404.22890678886
 20
402423.47700000001
 30
0.0
 11
645404.22389859532
 21
402423.47399999987
 31
0.0
  0
LINE
  5
FC
  8
1
  6
CONTINUOUS
 62
     1
 10
645292.90454890206
 20
402423.47399999987
 30
0.0
 11
645292.90955708292
 21
402423.47700000001
 31
0.0
  0
LINE
  5
FD
  8
1
  6
CONTINUOUS
 62
     1
 10
645291.86451663601
 20
402422.85100000002
 30
0.0
 11
645292.90454890206
 21
402423.47399999987
 31
0.0
  0
LINE
  5
FE
  8
1
  6
CONTINUOUS
 62
     1
 10
645376.27026677295
 20
402423.47399999987
 30
0.0
 11
645375.495
 21
402422.85100000002
 31
0.0
  0
LINE
  5
FF
  8
1
  6
CONTINUOUS
 62
     1
 10
645376.90000000026
 20
402422.69799999997
 30
0.0
 11
645376.277
 21
402423.47399999987
 31
0.0
  0
LINE
  5
100
  8
1
  6
CONTINUOUS
 62
     1
 10
645404.22389859532
 20
402423.47399999987
 30
0.0
 11
645402.92844586633
 21
402422.69799999997
 31
0.0
  0
LINE
  5
101
  8
1
  6
CONTINUOUS
 62
     1
 10
645291.60909940233
 20
402422.69799999997
 30
0.0
 11
645291.86451663601
 21
402422.85100000002
 31
0.0
  0
LINE
  5
102
  8
1
  6
CONTINUOUS
 62
     1
 10
645375.495
 20
402422.85100000002
 30
0.0
 11
645375.61759615375
 21
402422.69799999997
 31
0.0
  0
LINE
  5
103
  8
1
  6
CONTINUOUS
 62
     1
 10
645402.92844586633
 20
402422.69799999997
 30
0.0
 11
645401.88173341623
 21
402422.071
 31
0.0
  0
LINE
  5
104
  8
1
  6
CONTINUOUS
 62
     1
 10
645290.56238956132
 20
402422.071
 30
0.0
 11
645291.60909940233
 21
402422.69799999997
 31
0.0
  0
LINE
  5
105
  8
1
  6
CONTINUOUS
 62
     1
 10
645391.03231680952
 20
402415.57199999999
 30
0.0
 11
645317.69400000002
 21
402371.641
 31
0.0
  0
LINE
  5
106
  8
1
  6
CONTINUOUS
 62
     1
 10
645317.69400000002
 20
402371.641
 30
0.0
 11
645279.71299999999
 21
402415.57199999999
 31
0.0
  0
LINE
  5
107
  8
1
  6
CONTINUOUS
 62
     1
 10
645279.71299999999
 20
402415.57199999999
 30
0.0
 11
645290.56238956132
 21
402422.071
 31
0.0
  0
LINE
  5
108
  8
1
  6
CONTINUOUS
 62
     1
 10
645401.88173341623
 20
402422.071
 30
0.0
 11
645391.03231680952
 21
402415.57199999999
 31
0.0
  0
ENDBLK
  5
10A
  8
0
 62
     1
  0
ENDSEC
  0
SECTION
  2
ENTITIES
  0
INSERT
  5
5C
  8
1
  6
CONTINUOUS
 62
     1
  2
*U2
 10
0.0
 20
0.0
 30
0.0
1001
GRADIENTCOLOR1ACI
1070
     5
1001
GRADIENTCOLOR2ACI
1070
     2
1001
ACAD
1002
{
1000
R14_HATCH_DATA
1000
5C
1011
1.0
1021
0.0
1031
0.0
1021
0.0
1031
0.0
1011
0.0
1021
0.0
1031
0.0
1021
1.0
1031
0.0
1011
0.0
1021
0.0
1031
0.0
1021
0.0
1031
1.0
1040
0.0
1010
0.0
1020
0.0
1030
1.0
1000
SOLID
1070
     1
1070
     0
1071
        3
1071
        1
1071
        9
1070
     1
1040
645279.71299999999
1040
402415.57199999999
1040
645429.08200000005
1040
402505.04700000002
1070
     1
1040
645429.08200000005
1040
402505.04700000002
1040
645435.05599999998
1040
402498.45899999992
1070
     1
1040
645435.05599999998
1040
402498.45899999992
1040
645435.05799999996
1040
402498.45600000001
1070
     1
1040
645435.05799999996
1040
402498.45600000001
1040
645445.81599999999
1040
402486.81199999992
1070
     1
1040
645445.81599999999
1040
402486.81199999992
1040
645458.32799999998
1040
402472.79100000008
1070
     1
1040
645458.32799999998
1040
402472.79100000008
1040
645458.33100000012
1040
402472.78799999988
1070
     1
1040
645458.33100000012
1040
402472.78799999988
1040
645468.26199999976
1040
402461.83399999992
1070
     1
1040
645468.26199999976
1040
402461.83399999992
1040
645317.69400000002
1040
402371.641
1070
     1
1040
645317.69400000002
1040
402371.641
1040
645279.71299999999
1040
402415.57199999999
1071
        0
1071
       16
1071
        5
1070
     1
1040
645376.27400000009
1040
402423.47700000001
1040
645376.277
1040
402423.47399999987
1070
     1
1040
645376.277
1040
402423.47399999987
1040
645376.90000000026
1040
402422.69799999997
1070
     1
1040
645376.90000000026
1040
402422.69799999997
1040
645376.11999999988
1040
402422.071
1070
     1
1040
645376.11999999988
1040
402422.071
1040
645375.495
1040
402422.85100000002
1070
     1
1040
645375.495
1040
402422.85100000002
1040
645376.27400000009
1040
402423.47700000001
1071
        0
1071
       16
1071
        5
1070
     1
1040
645353.24800000025
1040
402449.29399999999
1040
645353.25100000005
1040
402449.28999999998
1070
     1
1040
645353.25100000005
1040
402449.28999999998
1040
645353.87399999995
1040
402448.51400000002
1070
     1
1040
645353.87399999995
1040
402448.51400000002
1040
645353.09499999997
1040
402447.88799999998
1070
     1
1040
645353.09499999997
1040
402447.88799999998
1040
645352.46799999999
1040
402448.66800000001
1070
     1
1040
645352.46799999999
1040
402448.66800000001
1040
645353.24800000025
1040
402449.29399999999
1071
        0
1070
     1
1070
     1
1071
        1
1040
0.0
1040
0.0
1040
0.0
1002
}
  0
ENDSEC
  0
EOF
